Wednesday, February 29, 2012

2 Days Till Monday





2 Days Till Monday

Click here to watch videoHey Fernando,

This is a piece I wrote to work on your hybrid picking.

It also has a little flat picking thrown in as well.

Start this piece slow and make sure above everything else that you maintain a solid technique.

You want to build your endurance with your hybrid picking so just work it slow and consistent and you'll be fine.

A metronome won't hurt either. Of course, you can vary the tempo slightly later with a piece like this to inject some musicality.

E |-------------------------------------------------------------------------------|
B |-------0-------0------0------0------0-----0------0-----0------0------0---------
|
G |----0-------0------0------0------0------0-----0------0-----0------0------------
|
D |-12-----10------9------7------9------7-----5------4-----5------4------
---------|
A |-------------------------------------------------------------------------------
|
E |-------------------------------------------------------------------------------
|

E |-------------------------------------------------------------------------------|
B |------0------0-----------------------------------------------------------------
|
G |---0------0---------0-----0------0------0-----0----0-2s5-4-0--
-----------------|
D |-2------0---------0-----0------0------0-------0--------------------------------
|
A |----------------3------2-----0-----------------2-------------------------------
|
E |--------------------------------------2-----3----------------------
------------|

E |-----------------------------------------7-8-10-8-7h8p7------------------------|
B |-------12---------10--------8p7-8-10--------------------10-8-7-----------------
|
G |----0-----0----0-----0---0------------------0---------------------9-7----------
|
D |-12---------10---------9-------------------------------------------------------
|
A |-------------------------------------------------------------------------------
|
E |--------------------------------------------------------------------------
-----|

E |------3-----------3-------3----------------------------------------------------|
B |----0---0------0---0---0---0---0--------------12--------10--------
-------------|
G |-5--------3s4--------2-------0------0-------0----0----0----0-------------------
|
D |------------------------------------0------12--------10-----------
-------------|
A |-------------------------------------------------------------------------------
|
E |-------------------------------------------------------------------------------
|

E |-----------------7-10-------8---------7----------5-----------3---------3-------|
B |------8p7-8-10---------10---10---8---8---0h7---7---0h5---5-----0---0-----------
|
G |---0-------------------9----------9--------7----------5----------3s4-----------
|
D |-9-----------------------------------------------------------------------------
|
A |-------------------------------------------------------------------------------
|
E |-------------------------------------------------------------------------------
|

E |------3------------------------------------------------------------------------|
B |----0---0---0--------------0-------0------0------0-----0------0-----0-----0
----|
G |-2--------0-----0-------0-------0------0------0------0-----0------0-----0--
----|
D |---------------0-----12------10------9------7------9-----7------5-----4--------
|
A |-------------------------------------------------------------------------------
|
E |-------------------------------------------------------------------------------
|

E |--------------------------------------------0---2-3s7--5--3--------------------|
B |------0h1-------0h3-----3-5------5-7----0-------------------
-------------------|
G |---2----------4--------5--------7----------0-------7--5--4---------------------
|
D |-2----------4--------5--------7------------2-----------------------------------
|
A |---------------------------------------------2-----------------
----------------|
E |------------------------------------------0--------------------
----------------|

E |-------------------------------------------------------------------------------|
B |--------------------------
-----------------------------------------------------|
G |-0--2---5---4---0------
--------------------------------------------------------|
D |---------0---0---0------
-------------------------------------------------------|
A |---------7---5---2h3---
--------------------------------------------------------|
E |-------------------------
------------------------------------------------------|

E |-----------------------------------------7-8-10-8-7h8p7------------------------|
B |-------12---------10--------8p7-8-10--------------------10-8-7-------
----------|
G |----0-----0----0-----0---0------------------0---------------------9-7----------
|
D |-12---------10---------9-------------------------------------------------
------|
A |-------------------------------------------------------------------------
------|
E |-------------------------------------------------------------------------------
|

E |------3-----------3-------3----------------------------------------------------|
B |----0---0------0---0---0---0---0--------------12--------10-----
----------------|
G |-5--------3s4--------2-------0------0-------0----0----0----0---
----------------|
D |------------------------------------0------12--------10------------------------
|
A |-------------------------------------------------------------------
------------|
E |-------------------------------------------------------------------------------
|

E |-----------------7-10-------8--------8-------7-----------5-----------3---------|
B |------8p7-8-10---------10---9----7---7--8---8---0h7----7---0h5---5--
-----------|
G |---0-------------------9---------8--------9------7------------5-----------
-----|
D |-9-----------------------------------------------------------------------------
|
A |---------------------------------------------------------------------------
----|
E |---------------------------------------------------------------------------
----|

E |--------3--------3-------------------------------------------------------------|
B |------0---0---0---0---0-------
-------------------------------------------------|
G |-3s4-------2--------0-----0---
-------------------------------------------------|
D |--------------------------0-----
-----------------------------------------------|
A |-------------------------------------------------------------------------------
|
E |---------------------------------
----------------------------------------------|

E |-------------------------------------------------------------------------------|
B |--------0-------0------0------0-----0------0-----0-----0--
---------------------|
G |-----0-------0------0------0------0-----0------0-----0-------------------------
|
D |-12------10------9------7------9-----7------5-----4-----
-----------------------|
A |-------------------------------------------------------------
------------------|
E |------------------------------------------------------------
-------------------|

E |--------------------------------------------0---2-3s7-5---------0--------------|
B |------0h1-------0h3-----3-5------5-7----0------------8-7-5---------------------
|
G |---2----------4--------5--------7----------0------------------7---7------------
|
D |-2----------4--------5--------7------------2-----------------------------------
|
A |---------------------------------------------2---------------------------
------|
E |------------------------------------------0------------------------------------
|

E |------0--------0---------------------------------------------------------------|
B |----0---0---0---0--------------------------------------------------------------
|
G |-5--------4----------------------------------0-----0---------0---------0-------
|
D |--------------------7-5p4---4-------------0-----0---0----0---0-------0---------
|
A |----------------------------7---7-5---2s3-----2--------0--------------0h2------
|
E |-------------------------------------7------------------------------2s3--------
|

 

Bluegrass Guitar MasteryBluegrass Guitar Mastery

Bluegrass can be as simple or as complex as you make it. Not many other genres of guitar have this much flexibility.

It can be a lot of fun for friends getting together just playing basic chords or a five piece band of jamming talent.

Bluegrass is a type of music that has basically no electric instruments or drums. It excites the listener by emphasizing notes and just plain good old fashioned picking.

If you are already a bluegrass fan, then you know how great it is. It is a lifestyle in itself. It's fun and has attracted a diverse and loyal following worldwide.

Click here to learn more

Warm Regards,

Chris Elmore
Elmore Music






--
Ouça as musicas

no site e comente

www.bandasdegaragem.com.br/cascarasagrada

Fernando Carvalho
 17- 9155-4920

Tuesday, February 28, 2012

Perform on StageIt for the Fender Music Foundation




Opportunity Notice ReverbNation
Share the online stage with artists from around the world!
Dates: Thursday, April 26th
Location: Online
Submissions Open: Submissions are open now!
Submissions Close: Sun Apr 22
Submission Fee: 0.00
Learn More
Event Description:

The Fender Music Foundation is looking for 10 ReverbNation Artists from around the world to perform a charity concert on StageIt.com. Artists that have previously graced this online stage include Jason Mraz, Trey Songz, Jimmy Buffett, Indigo Girls, Lacuna Coil, Butch Walker, Glen Phillips, Lelia Broussard, Jenny Owen Youngs, Bess Rogers, KORN and Plain White T's. The performances are scheduled for April 26, 2012 between 6pm and 8pm.

The Fender Music Foundation is proud to announce its first online benefit concert on Stageit. With the participation of ReverbNation artists, we raise awareness and funding for vital music programs across the country. The Fender Music Foundation was created to provide funding and resources for music programs across America so that kids and adults alike will have an opportunity to experience the joys of music. We also educate the public on the value of a musical education. With your help, we can make a difference in people's lives by providing them a gift that lasts a lifetime.

To perform for this event each artist will need a web camera and the following hardware requirements for broadcasting.

- Pentium Core 2 Duo 2Ghz or Higher
- 4GB RAM
- Windows Vista / Windows 7
- Mac OS X 10.5 or higher (v20.0.89)
- 800Kbps upload bandwidth

Learn More »

Thank you,
Reverb Live Team

Submission requires a free ReverbNation account and active subscription to ReverbNation Press Kits.

Don't want to receive opportunity notices any longer? Unsubscribe »





--
Ouça as musicas

no site e comente

www.bandasdegaragem.com.br/cascarasagrada

Fernando Carvalho
 17- 9155-4920

Monday, February 27, 2012

ReverbNation Weekly Update




Having trouble viewing this email? View it in your browser.
2649
See this week's Chart Rankings, view New fans, and get more updates from your ReverbNation account. facebook
ReverbNation

February 27, 2012

Weekly Update for

Cascara Sagrada

What's your Buzz?

See what people are saying about you on the web.

Find Out

Get More Gigs!

Create an RPK - Reverb Press Kit.

Create RPK

On Facebook?

Add music to Facebook with Band Profile app.

Add Band Profile

#90

in Rock Chart

for Catanduva, SP

View Local Charts

13

+ 0

Fans

get more fans

View Fans Stats

6

+ 0

Plays

get more plays

View Play Stats

22

+ 0

Band Equity

View Equity Stats

iPhone

Get Your Band In The App Store

Build Your Band's Custom iPhone/Android App

Start Building Now »

Be Sure to Check Us Out on

twitter

+

facebook

Unsubscribe  |  Privacy Policy

Physical inquiries can be sent to: 501 Washington St. Suite D, Durham, NC, 27701, USA






--
Ouça as musicas

no site e comente

www.bandasdegaragem.com.br/cascarasagrada

Fernando Carvalho
 17- 9155-4920

500.000 de Matéria Negra





Depois de abrir os Oficiais podem ir as compras
pois ainda vai ter muita Matéria Negra 
de uma olhada em Puerto Comercial.

Adm
 02-26 14:08:32 +0100Administrador Official  

Quando receber a Matéria Negra 
aconselho abrir todos os Oficias 
pois melhora muito seu jogo .

produção ataque defesa espião 
abre a nave mais forte do jogo .

Adm
02-26 13:51:34 +0100Administrador 500.000 de Matéria Megra 
 
No Domingo as 20H00 será creditado
500.000 de Matéria Megra a quem estiver
jogando neste universo e vou testar 
velocidade 9x 8x 9x .

Pretendo fazer assim de semana 
5x 4 x 5x e de
final se semana 9x 8x 9x

apartir de segunda volta a promoção 
para novatos de 10.000 de Matéria Megra


Adm




--
Ouça as musicas

no site e comente

www.bandasdegaragem.com.br/cascarasagrada

Fernando Carvalho
 17- 9155-4920

Sunday, February 26, 2012

Caixa Econômica Federal abre concurso / Secretaria de Estado da Educação - SP




ATENÇÃO

 

SECRETARIA DE ESTADO DA EDUCAÇÃO

 

Inscrições Abertas!

 

Cargo: Agente de Organização Escolar

Escolaridade: Nível Médio

 

Vagas: 9.932

Local de Trabalho: CATANDUVA, Ariranha, Cajobi, Catiguá, Elisiário, Embaúba, Itajobi, Marapoama, Novais, Novo Horizonte, Palmares Paulista, Paraíso, Pindorama, Santa Adélia, Tabapuã.

 

Inscrições: 14/03/12 - 26/03/12

 

Mais Informações:

http://www.pciconcursos.com.br/concurso/secretaria-de-estado-da-educacao-sp-9932-vagas

_________________________________________________________________________________________

Atenção: Encaminhe esse e-mail para seus amigos e familiares. Ótima oportunidade de trabalho no Caixa Econômica Federal e Banco do Brasil! Informações no final deste e-mail

Concursos Públicos

Concurso Caixa 2012 oferece vagas para nível médio e superior

Concurso Caixa 2012 abre vagas para Técnico Bancário, Advogado, Arquiteto e Engenheiro nas áreas Agronômica, Civil, Elétrica e Mecânica.

 

Enfim, saiu o tão esperado edital para concurso público nacional da Caixa Econômica Federal. Sob a responsabilidade da Cesgranrio, o concurso Caixa 2012 é destinado a formação de cadastro de reserva para o cargo de Técnico Bancário Novo (Carreira Administrativa), Advogado, Arquiteto e Engenheiro nas áreas Agronômica, Civil, Elétrica e Mecânica (Carreira Profissional).

As oportunidades na Carreira Administrativa exigem do interessado nível médio completo em qualquer área de formação, enquanto que para a Carreira Profissional é preciso ter formação de nível superior na respectiva área. Está reservada a cota para portadores de necessidades especiais, em conformidade com a legislação pertinente: de cada grupo de 20 candidatos admitidos no polo de opção, um será pessoa com deficiência considerada aprovada.

O banco Estatal e a organizadora ressaltam que será respeitada a vigência dos concursos públicos anteriores (2010), a ser encerrada nos dias 13 de junho de 2012, para RJ e SP, e 28 de junho de 2012, para os demais Estados. Portanto, estão asseguradas as possíveis convocações dos candidatos classificados nesses certames, de acordo com as demandas existentes.

Os inscritos no cargo de Técnico Bancário Novo passarão por três etapas de avaliação, que serão: provas objetivas, prova de redação e, por fim, exames médicos admissionais, os quais serão feitos pelos aprovados e classificados nas duas etapas anteriores e acontecerão conforme as necessidades de provimento da Caixa. Já os candidatos a Advogado, Arquiteto e Engenheiro passarão por provas objetivas, provas discursivas, avaliação de títulos e também exames médicos admissionais, seguindo o mesmo critério anterior.

Financeiramente, o Técnico Bancário Novo começará a carreira recebendo um salário inicial de R$ 1.744,00 por mês, acrescido de uma série de vantagens, como a participação nos lucros e nos resultados, Plano de Saúde e Plano de Previdência Complementar, auxílio Refeição/Alimentação e auxílio Cesta/Alimentação. Terá de cumprir uma jornada diárias de 6 horas diárias, de segunda a sexta, desempenhando atividades administrativas, prestando atendimento aos clientes e ao público e efetuando operações diversas relacionadas com o cotidiano bancário.

Na Carreira Profissional - Advogado, Arquiteto e Engenheiro - a remuneração inicial será de R$ 7.734,00, contando com as mesmas vantagens do Técnico Bancário Novo e cumprindo uma jornada de 8 horas diárias.

A inscrição para ambos os certames deverá ser efetuada no período entre 27 de fevereiro e 13 de março de 2012 na página da FUNDAÇÃO CESGRANRIO (www.cesgranrio.org.br), mediante o pagamento de uma taxa no valor de R$ 37,00 (Técnico Bancário Novo) ou de R$ 73,00 (cargos de nível superior).

No ato da inscrição, o interessado deverá preencher o formulário específico, optar por um polo, que automaticamente estará vinculado ao macropolo e à cidade de provas e imprimir o documento de arrecadação da taxa. A partir de 18 de abril os candidatos deverão consultar e imprimir no site o Cartão de Confirmação de Inscrição.

As provas objetivas e de redação para o cargo de nível médio terão a duração de 4 horas e serão aplicadas no dia 22 de abril de 2012 e as provas objetivas e discursivas dos optantes aos cargos de nível superior será realizada no dia 15 de abril de 2012. A tabela completa contendo as cidades de aplicação das provas pode ser consultada no segundo anexo do edital.

Os gabaritos das provas objetivas serão distribuídos à Imprensa e disponibilizados no site da organizadora no primeiro dia útil seguinte ao de realização das mesmas. Os resultados finais para as carreiras administrativa e profissional possivelmente serão divulgados nos dias 19 de junho e 09 de julho de 2012, respectivamente.

O concurso público terá validade de um ano, podendo ser prorrogado, a critério da CAIXA, uma única vez, por igual período, contado a partir da data de homologação do resultado final deste Concurso Público.

Outras informações referentes ao Concurso Público poderão ser obtidas na Central de Atendimento da FUNDAÇÃO CESGRANRIO, pelo telefone 0800 701 2028, ou pelo e-mail concursos@cesgranrio.org.br.

Fonte: http://concursosnobrasil.com.br/concursos/br/concurso-caixa-economica-federal.html

 

Edital na íntegra:

http://www.pciconcursos.com.br/concurso/caixa-economica-federal-vagas-ate-1744

http://www.pciconcursos.com.br/concurso/caixa-economica-federal-vagas-ate-7734

-----------------------------------------------------------------------------------------------------------

Não perca tempo. Inicie seus estudos já!

 

Curso Preparatório

 

 

* * Início Imediato * *

 

Língua Portuguesa, Matemática, Raciocínio Lógico, Legislação e Conhecimentos Específicos

 

-  -  -  -  -  -  -  -  -  -  -  -  -  -  -  -  -  -  -  -  -  -  -  -  -  -  -  -  -  -  -  -  -  -

 

*  *  Horário disponível para formação de novas turmas  *  *

 

Curso Semanal Noturno – (das 19h às 22h)

 

Curso Semanal / Manhã – (das 8h às 11h)

 

Curso Semanal / Tarde – (das 14h às 17h)

 

Curso Diurno – Sábados e/ou Domingos –  (das 9h às 12h e/ou 14h às 17h)

 

 

Matricule-se já! E participe da nossa promoção!

-  -  -  -  -  -  -  -  -  -  -  -  -  -  -  -  -  -  -  -  -  -  -  -  -  -  -  -  -  -  -  -  -  -  -  -

P R O M O Ç Ã O

de

Arrebentar

 

3 x R$ 85,00*

+ Material Didático inteiramente grátis*

 

Achou caro?

 

Então deixe três amigos pagarem o

Curso para você!

 

Você traz três amigos e ganha o

Curso Completo inteiramente grátis*

-  -  -  -  -  -  -  -  -  -  -  -  -  -  -  -  -  -  -  -  -  -  -  -  -  -  -  -  -  -  -  -  -  -  -  -

Não perca tempo. Inicie seus estudos já!

* Promoção válida somente para os 15 primeiros alunos matriculados

-  -  -  -  -  -  -  -  -  -  -  -  -  -  -  -  -  -  -  -  -  -  -  -  -  -  -  -  -  -  -  -  -  -  -  -  -  -  -  -  -  -  -  -  -

INFORMAÇÕES

 

Concursos Públicos

 

< NOVO ENDEREÇO >

 

End. Av. Cananéia, 270 – Jd. Sotto – Catanduva – SP

 

Atendimento

TERÇAS e QUINTAS-FEIRAS

Das 20h às 22h

ou

SÁBADOS

Das 16h às 18h

 

Aviso Importante

Não há atendimento no local fora dos dias e horários estabelecidos

 

Mapa de Localização

 

Mapa de Localização no link:

 

http://www.orkut.com.br/Main#AlbumZoom?uid=3057799523520643403&pid=1300986772874&aid=1247912306$pid=1300986772874

 

-  -  -  -  -  -  -  -  -  -  -  -  -  -  -  -  -  -  -  -  -  -  -  -  -  -  -  -  -

Outras Informações

 (17) 9613-0913 Vivo / (17) 9187-2125 Claro / (17) 8132-3221 TIM

efetivoconcursospublicos@hotmail.com

 

-  -  -  -  -  -  -  -  -  -  -  -  -  -  -  -  -  -  -  -  -  -  -  -  -  -  -  -  -

 

Novidade

 

* Serviço Gratuito *

 

Se você gostaria de participar dos Concursos Públicos de Catanduva e Região mas, só fica sabendo quando as inscrições já terminaram o EFETIVO – Concursos Públicos disponibiliza para você um serviço de aviso.

 

As principais informações de concursos cuidadosamente selecionados poderão ser enviadas para sua caixa de e-mail.

 

Para receber informações e ficar por dentro do mundo dos concursos é só solicitar seu cadastro(vide dados cadastrais abaixo) enviando um e-mail para:

 

efetivoconcursospublicos@hotmail.com

 

* Dados Cadastrais *

 

Nome

Cidade em que reside

Cidade/Região de interesse em concursos

E-mail

 

Não perca tempo! Faça seu cadastro agora!

 

-  -  -  -  -  -  -  -  -  -  -  -  -  -  -  -  -  -  -  -  -  -  -  -  -  -  -  -  -

 

Acesse também nossa página no Orkut / Facebook

 

 

nos adicione em sua lista de contatos e fique por dentro de todas as informações sobre Concursos Públicos em Catanduva e Região

 

 

 

Atenção: Encaminhe esse e-mail para seus amigos e familiares. Ótima oportunidade de compra de imóvel!

 

VENDE-SE

* Residência *

< Recém Construída >

 

CATANDUVA/SP

 

 

 

Metragem: Terreno de 340m2, sendo 190m2 de construção

 

Localização: Av. Cananéia, 270 – Jd. Sotto – Catanduva – SP

(Ótima Localização: 200m da Av. José Nelson Machado e 300m da Rua Brasil)

 

Valor: R$ 450.000,00

 

Documentação regularizada pronta para financiamento

 

Aceita-se permuta por imóvel de menor valor

 

Tratar direto com o proprietário:

(17) 9613-0913 / (17) 9187-2125

 

-  -  -  -  -  -  -  -  -  -  -  -  -  -  -  -  -  -  -  -  -  -  -  -  -  -  -  -  -  -  -  -  -  -  -  -  -  -  -  -  -  -  -  -  -  -  -  -  -  -  -

 

< Descrição do Imóvel >

 

3 Quartos, sendo uma suíte com banheira

2 Banheiros

Escritório

Sala com 2 ambientes

Jardim de Inverno

Lavabo

Cozinha

Área de Serviço

Despejo

Garagem com 4 vagas

Quintal com 55m2

 

OUTROS: Cerca elétrica, portão eletrônico, interfone, tubulação hidráulica pronta para aquecedor solar, ambientes amplos, acabamento fino.

 

-  -  -  -  -  -  -  -  -  -  -  -  -  -  -  -  -  -  -  -  -  -  -  -  -  -  -  -  -  -  -  -  -  -  -  -  -  -  -  -  -  -  -  -  -  -  -  -  -  -  -

 

< Mapa de Localização >

 

 

 

-----------------------------------------------------------------------------------------------------------------------------------------

 

VENDE-SE

TERRENO

Catanduva – SP

 

Bairro: Residencial Pedro Monteleone

 

 

Rua João Marton, ao lado do nº 135, em frente ao muro do LLuminar Residence

 

Referência: Próximo à Rod. Washington Luis

Vias de Acesso: Rod. Washington Luis e Av. Dep. Orlando Zancaner

 

Medindo 10m X 25m, murado lado direto e fundos

 

Valor: R$ 60.000,00

 

Documentação regularizada, pronta para financiamento

 

Tratar direto com o proprietário:

(17) 9613.0913

(17) 9187-2125

 

-------------------------------------------------------------------------------------------------------------------------

< Outras Fotos >

 

 

 

 

 

 

 

 

 

 

Segue abaixo outras fotos do imóvel

Mapa de Localização: R. João Marton - Residencial Pedro Monteleone

 




--
Ouça as musicas

no site e comente

www.bandasdegaragem.com.br/cascarasagrada

Fernando Carvalho
 17- 9155-4920

Featured Post

Cáscara Sagrada Activity Statistics

Banda Cáscara Sagrada ...